fbpx
Le top 5 d’exercices en guitare pour débuter !

Le top 5 d’exercices en guitare pour débuter !

Lorsque l’on débute son apprentissage de la guitare en naviguant sur le net, il est très simple de tomber sur des milliers de sites expliquant que vous venez de trouver l’exercice guitare ultime. Pour poser le contexte d’entrée de jeu : il n’y a pas d’exercices miracle, seulement de la pratique. Heureusement, il arrive aussi qu’il existe des séquences et séries de notes nous y aidant ! Faisons ensemble le bilan avec ce classement des 5 exercices guitare les plus efficace.

Exercice guitare : le TOP 5

    • 5. La très classique gamme pentatonique mineure de La

Plus encore que la gamme majeur, la gamme pentatonique mineure est la position fétiche des fannas d’improvisation. Cette position est très simple à prendre en main. Elle a le mérite de pouvoir s’utiliser dans presque toutes les séquences d’accords et peut donc ouvrir d’incroyables possibilités au guitariste.

 e |---- ---- ---- ---- |---- ---- ---- ---- |---- ---- 5--- 8---|8--- 5--- ---- ----|---- ---- ---- ----|---- ---- ---- ----|
 B |---- ---- ---- ---- |---- ---- ---- ---- |5--- 8--- ---- ----|---- ---- 8--- 5---|---- ---- ---- ----|---- ---- ---- ----|
 G |---- ---- ---- ---- |---- ---- 5--- 7--- |---- ---- ---- ----|---- ---- ---- ----|7--- 5--- ---- ----|---- ---- ---- ----|
 D |---- ---- ---- ---- |5--- 7--- ---- ---- |---- ---- ---- ----|---- ---- ---- ----|---- ---- 7--- 5---|---- ---- ---- ----|
 A |---- ---- 5--- 7--- |---- ---- ---- ---- |---- ---- ---- ----|---- ---- ---- ----|---- ---- ---- ----|7--- 5--- ---- ----|
 E |5--- 8--- ---- ---- |---- ---- ---- ---- |---- ---- ---- ----|---- ---- ---- ----|---- ---- ---- ----|---- ---- 8--- 5---|

Des montées et descentes consécutives en aller-retour sont idéales pour travailler la vitesse et l’agilité.

    • 4. Le riff très Rock de Téléphone

Petit coup de cœur ici qui nous a bien aidé dans notre jeune aventure de guitariste : le riff guitare de la chanson C’est vraiment toi (ça) de Téléphone. Le riff d’intro, signature du groupe Téléphone nous est envié, même outre atlantique, pour sa musicalité et sa qualité technique.

 e |---- ---- ---- ---- |---- ---- ---- ---- |
 B |---- ---- ---- ---- |---- ---- ---- ---- |
 G |---- ---- ---- --2- |---- ---- ---- ---- |
 D |---- ---- 5-5- 4--- |---- --2- ---- 4-2- |
 A |---- --2- ---- ---- |0-0- 4--- 2-2- ---- |
 E |0-0- 4--- ---- ---- |---- ---- ---- ---- |

En faisant de l’alternate picking (jeu en aller-retour au médiator) et en utilisant l’index, l’annulaire et le petit doigt de la main gauche, on a là un exercice guitare qui vous donnera du fil à retordre mais, joué à de grandes vitesses, vous fera gagner énormément en agilité !

    • 3. L’escalier

Même sur le papier, l’exercice guitare que l’on surnomme l’Escalier est équivoque. Cet exercice quant à lui, est considéré comme une première porte d’entrée dans l’univers du Sweep Picking. Pour travailler ses doigts de la meilleure des façon, le but sera de les poster/retirer au fur et à mesure que le médiator effectue des descendes ou des montées avec le médiator.

 e |---- ---- ---- 5---|8--- ---- ---- ----|---- ---- ---- 5---|8--- ---- ---- ----|
 B |---- ---- 6--- ----|---- 7--- ---- ----|---- ---- 6--- ----|---- 7--- ---- ----|
 G |---- 7--- ---- ----|---- ---- 6--- ----|---- 7--- ---- ----|---- ---- 6--- ----|
 D |8--- ---- ---- ----|---- ---- ---- 5---|8--- ---- ---- ----|---- ---- ---- 5---|
 A |---- ---- ---- ----|---- ---- ---- ----|---- ---- ---- ----|---- ---- ---- ----|
 E |---- ---- ---- ----|---- ---- ---- ----|---- ---- ---- ----|---- ---- ---- ----|

Si vous n’êtes pas un passionné de sweet picking, vous pouvez aussi jouer cet exercice note par note sans effets. Il reste très efficace pour travailler la souplesse du poignet !

    • 2. L’exercice spider, ou l’araignée

L’exercice de prédilection des métalleux cherchant à gagner en vitesse. Le spider est un exercice permettant de travailler la dextérité, la précision et la synchronicité dans le positionnement des doigts. Il peut être décaler n’importe où sur le manche.

 e |---- ---- ---- ----|---- ---- 5--- 8---|5--- ---- ---- ----|---- ---- ---- ----|
 B |---- ---- ---- ----|6--- 7--- ---- ----|---- 7--- 6--- ----|---- ---- ---- ----|
 G |---- ---- 6--- 7---|---- ---- ---- ----|---- ---- ---- 7---|6--- ---- ---- ----|
 D |5--- 8--- ---- ----|---- ---- ---- ----|---- ---- ---- ----|---- 8--- 5--- 8---|
 A |---- ---- ---- ----|---- ---- ---- ----|---- ---- ---- ----|---- ---- ---- ----|
 E |---- ---- ---- ----|---- ---- ---- ----|---- ---- ---- ----|---- ---- ---- ----|

Le challenge ici va être de ne pas étouffer les cordes en jouant les notes successivement.

    • 1. L’indémodable exercice déliateur

C’est le grand classique indémodable, l’exercice guitare numéro 1. On ne pouvait passer à côté, et nous savons bien que vous devez être un peu déçu de le découvrir en première place. Cependant, les résultats sont là. Les exercices déliateur sont la pièce maitresse de l’arsenal du guitariste. Pour les débutant, ils servent à se délier les doigts, gagner en vitesse et en agilité. Pour les guitaristes experts, ils sont devenues une routine presque inconsciente. Essentiels pour bien s’échauffer avant de jouer Eruption de Van Halen.

 e |---- ---- ---- ---- |---- ---- ---- ---- |---- ---- ---- ---- |---- ---- ---- ---- |---- ---- ---- ----|1--- 2--- 3--- 4---|
 B |---- ---- ---- ---- |---- ---- ---- ---- |---- ---- ---- ---- |---- ---- ---- ---- |1--- 2--- 3--- 4---|---- ---- ---- ----|
 G |---- ---- ---- ---- |---- ---- ---- ---- |---- ---- ---- ---- |1--- 2--- 3--- 4--- |---- ---- ---- ----|---- ---- ---- ----|
 D |---- ---- ---- ---- |---- ---- ---- ---- |1--- 2--- 3--- 4--- |---- ---- ---- ---- |---- ---- ---- ----|---- ---- ---- ----|
 A |---- ---- ---- ---- |1--- 2--- 3--- 4--- |---- ---- ---- ---- |---- ---- ---- ---- |---- ---- ---- ----|---- ---- ---- ----|
 E |1--- 2--- 3--- 4--- |---- ---- ---- ---- |---- ---- ---- ---- |---- ---- ---- ---- |---- ---- ---- ----|---- ---- ---- ----|

Est-ce que vous avez aimé ?

Cliquez ici pour noter

Note moyenne / 5. Nombre de votes

Laisser un commentaire